Rejestracja
Rejestracja
Autoagresywni Strona Główna
  Użytkownik: Hasło:



Poprzedni temat «» Następny temat
Forumowa Kompozycja/ Piosenka?
Autor Wiadomość
LightingOwl 



Dołączył: 03 Kwi 2013
Posty: 341
Skąd: Polska

Wysłany: 2014-07-19, 19:24   

Ok, żeby nie było że rzucam słowa na wiatr, skończyłem komponować materiał wszystko przygotowane, nagrane znajdziecie do odsłuchu na dole posta.

Ze względu na niechęć jaka mnie złapała na samą myśl o gitarze musiałem przestać tworzyć własny forumowy utwór i zabrałem się za przygotowywanie coveru, w sumie myślę że wyszło to nawet na dobre ponieważ mam teraz pewność że wiele osób może się bez problemu dograć.

Przy tworzeniu wspomagałem się tym co znalazłem w internecie, nutami, tabulaturami itd.

Utwór który wybrałem to główny motyw muzyczny z gry Grand Theft Auto IV (Michael Hunter - Soviet Connection), nie jest to wierne odzwierciedlenie, ale to nie powinno stanowić problemu.



Poza tym pozwoliłem sobie założyć konto na SoundCloud dla ułatwienia udostępniania plików dźwiękowych. (Poza tym ma on dobrą jakość)

Nuty i tabulatury zacznę przygotowywać na dniach.

I oto i on, wstępnie przygotowany utwór.

https://soundcloud.com/forumowa-piosenka/soviet-connection




 
 
Forumowa Kompozycja/ Piosenka?
LightingOwl 



Dołączył: 03 Kwi 2013
Posty: 341
Skąd: Polska

Wysłany: 2014-08-09, 00:45   Nagrajmy utwór - forumowy cover

Doberek.

Nagrajmy forumowy utwór!
Cała zabawa polega na tym każdy kto ma ochotę może dograć partię która mu najlepiej odpowiada, myślę że każdy może spróbować, ponieważ niektóre partie zależą tylko od waszej wyobraźni (Clap, Tamp, Cast), proszę pamiętać że na te zamieszczone tutaj nałożone są już efekty, jeśli nagrywacie klaśnięcie to nie starajcie się na siłę uzyskać pogłosu. Jeśli chodzi o resztę, całość jest raczej przygotowana dla gitary i pianina, aczkolwiek uważam że inni też powinni dać radę zagrać, jeśli posiadacie inny instrument śmiało grajcie (byleby dźwięki się zgadzały).

Plan jest aby zagrać to:
https://soundcloud.com/forumowa-piosenka/soviet-connection
(przepraszam za fatalnie brzmiącą gitarę na końcu utworu)

Każdą przykładową partię możecie pobrać na komputer.

Partię basowe podałem w 2 kombinacjach ponieważ nie posiadam gitary basowej tak też nie wiem która będzie brzmiała lepiej, liczę na wasz sluch.

Chętnych do zabawy zapraszam do pisania w temacie że się zgłaszacie i jakie partie wybieracie do zagrania (można wybrać kilka).
Materiał proszę nagrywać suchy tzn. jeśli nagrywacie sam flet, ma być słychać sam flet, jeśli gracie pod moje nagrane partie, włączcie je na słuchawkach.
Nagrania proszę wrzucać na jakiś hosting (np. http://www.zippyshare.com/) i link do nagrania wysyłać mi na PW.

Gdy już dostanę wszystko co potrzebuję, zajmę się całą dalszą częścią prac.

Liczę na udaną zabawę. ;)

Tempo = 140 BPM

Intro Piano

https://soundcloud.com/forumowa-piosenka/intro-piano

https://docs.google.com/file/d/0B5UjYAC3e87AbVdIQlg1czNXUE0/edit

Intro Bas

https://soundcloud.com/forumowa-piosenka/intro-bas
Kod:

G# D G C# C F E

------------------------------------
------------------------------------
------------------------------------
4--10--3--9--8--1-0-----------------

lub

-------------------------------------
--0----------------------------------
--------4-3--------------------------
4----3-------1--0--------------------


Partia Główna 1

https://soundcloud.com/forumowa-piosenka/piano-partia-glowna-1

https://docs.google.com/file/d/0B5UjYAC3e87AWjdHMTE2UTJUMUE/edit

Partia Główna 2

https://soundcloud.com/forumowa-piosenka/piano-partia-glowna-2

https://drive.google.com/file/d/0B5UjYAC3e87AUlZGcVNyREo4cDg/edit

Partia Główna 3

https://soundcloud.com/forumowa-piosenka/piano-partia-glowna-3

https://drive.google.com/file/d/0B5UjYAC3e87ARGxrUm8zMzBGQzQ/edit

Partia Główna 4

https://soundcloud.com/forumowa-piosenka/piano-partia-glowna-4

https://docs.google.com/file/d/0B5UjYAC3e87AN0lSVXhBR1RxZGs/edit

Partia Główna Bas

https://soundcloud.com/forumowa-piosenka/piano-partia-glowna-1

Kod:

C C - D D - D C C - D D G C C# D C#

-------------------------------------------
-------------------------------------------
-------------------------------------------
8-8----10-10---10-8-8----10-10--3-8-9-10-9-

lub

---------------------------0-1---1----------
-------0-0----0--------0-0-----0------------
--------------------------------------------
8-8-------------8-8-------------------------


Gitara Główna

https://soundcloud.com/forumowa-piosenka/gitara-partia-glowna

Kod:

--------------------
--------------------
12----8--10---------
xx------------------
10----6--8----------
--------------------


Gitara Solowa

https://soundcloud.com/forumowa-piosenka/gitara-partia-solowa

Kod:

-----------------------------------
-----------------------------------
55555--77777--88888--777445--------
-----------------------------------  x2
-----------------------------------
-----------------------------------

------------------------------------
------------------------------------
5----7----8----10--9----------------
------------------------------------
------------------------------------
------------------------------------

-------------------------------------
-------------------------------------
5-7-8--5-7-8--5-7-8--5-7-8--5-7-8-10-
-------------------------------------  x2
-------------------------------------
-------------------------------------

-------------------------------------
-------------------------------------
5--7--8------5-----------------------
-------------------------------------
-------------------------------------
-------------------------------------


Gitara Solowa Finał

Niestety brak nagrania ponieważ popełniłem w nagraniu sporo błędów
przez co nie nadaje się ono do odsłuchu, ta partia idzie identycznie z
Piano Finał.

Gitara solowa finał
Kod:

-------------------------------
-------------------------------
12--8-7-1-0---8-12-13-15-16-17-
------------0------------------
-------------------------------
-------------------------------


Piano Finał

https://soundcloud.com/forumowa-piosenka/piano-final

https://docs.google.com/file/d/0B5UjYAC3e87AMjJzZXEzLVVUeWM/edit

Clap

https://soundcloud.com/forumowa-piosenka/clap

Cast

https://soundcloud.com/forumowa-piosenka/cast

Tamb

https://soundcloud.com/forumowa-piosenka/tamb




 
 
Forumowa Kompozycja/ Piosenka?
Scarlet Halo
[Usunięty]

Wysłany: 2014-08-09, 02:42   

Scaliłam - jest już temat o tej inicjatywie.



 
 
Forumowa Kompozycja/ Piosenka?
LightingOwl 



Dołączył: 03 Kwi 2013
Posty: 341
Skąd: Polska

Wysłany: 2014-08-09, 03:29   

Poprawiam link.

Partia Główna Bas

https://soundcloud.com/forumowa-piosenka/bas-glowna-partia




 
 
Forumowa Kompozycja/ Piosenka?
Kruk
[Usunięty]

Wysłany: 2014-08-10, 15:53   

LightingOwl, Sorry ale mi to przypomina tylko intro. :P Fajnie że przejełeś inicjatywe, czekam na to czy będzie "cosik" z tego.



 
 
Forumowa Kompozycja/ Piosenka?
Wyświetl posty z ostatnich:   
Odpowiedz do tematu
Nie możesz pisać nowych tematów
Nie możesz odpowiadać w tematach
Nie możesz zmieniać swoich postów
Nie możesz głosować w ankietach
Dodaj temat do Ulubionych
Wersja do druku

Skocz do:  


Powered by phpBB modified by Przemo © 2003 phpBB Group
Strona wygenerowana w 0.29 sekundy. Zapytań do SQL: 11